T-rev's Tab   Caedmon's   Featured   Other   Topics   Hints   Reviews   Links   Index

More songs by Waterdeep


This transcription is not my own work; it's from sco's old waterdeep.net fansite.

T-rev


*** tab from www.waterdeep.net ***
----------------------------------

"wanting to come home"
waterdeep
"old stuff"
don chaffer
1992 hey ruth music
jaafar gassid--bisonpimp@aol.com


    Am        C        G        D?        F        G
  x02210    x32010   320001   054030   133211   355433
   Asus
  x02230
e------------------------------------------------------------
B-------------------------------------------1-----------1----
G------2-------0--------------------------2---2-------0---0--
D----2---2---2---2-----0----------------2-------2---2--------
A--0-------3---------2---2---0-2-0-0--0-----------3----------
E------------------3-------3---------------------------------

e------------------------------------------------------------
B------------------------------------------------------------
G----------0-------------------------------------------------
D--2-----0---0-----------------------------------------------
A------2-------2---0-2-0-0-----------------------------------
E----3-----------3-------------------------------------------
after you play this part, start the strumming pattern.  after you strum thru
the 3 chords (Am, C, G) play the walkup below

  e  -------------
  G  -------------
  B  -------------
  D  -------------
  A  ---0-2-0-0---
  E  -3-----------


VERSE
Am                        C                        G
he's flipping thru the channels looking for some skin
Am                   C                     G
and he's wanting something to pretend he doesn't hurt
                 Am       C        G
so bad inside
Am              C                    G
but the TV's leaking all the same pain he's got within
Am             C                      G
he feels like he's been taken for a sick and darkened ride
Am  C  G

VERSE
Am            C                      G
later he's talking to these people like they were his kin
Am             C               G
but the only thing in common here is the beer
Am               C                     G
he feels like no one knows what going out or coming in
Am            C               G
and none of them are really wanting to be here

CHORUS
            Am             C     D?   F   G    Am-C-D?-F-G
he says, "Father, i think i'm wanting to come home
Am  C   D?        F    G          Am-C-D?-F-G
i need more than all this pain
Am                   C     D?  F   G        Am-C-D?-F-G
Jesus, i've been a lonely man for too long
Am  C       D?           F    G           Am-C-D?-F-G
i been too many years caught out in the rain"

**after you play the chorus, do the intro part, then go right into the verse**

VERSE
Am        C                       G
he had a girl he used to call his own
Am             C          G
and he was as good to her, as good as he knew how
Am                     C               G
he loved her from the top of soul to tip of bone
Am         C           G
but she left him, she left him anyhow

BRIDGE
F                   Am-Asus
he's not finding it
F              Am-Asus
not what he needs
F              Am-Asus
nothing to hold him up
F                    G
to heal a soul that bleeds

CHORUS


T-rev's Tab   Caedmon's   Featured   Other   Topics   Hints   Reviews   Links   Index

Please email comments to Email T-rev.